Jump to content

Recommended Posts

Dooooominic.

 

Oh shit sorry forgot about this, I went to architects that day and forgot when I came back

 

ok, all on the three thick strings (I always forget whether they're top or bottom)

 

D-------------10--------------------10-----------------------------------9------------------12-12-10-9--

A--0-0-7-0------0-6-7-0-0-7-0----0-6-7--------7----10-10-12-------------12---------------------

E--------------------------------------------------0-0----0------------------10-10-----10-----------------

Share this post


Link to post
Share on other sites

I'm fairly certain this has been posted somewhere in here before but I don't remember if there was a response. Has anyone got a tab for the first 30 or so seconds of this?

 

I tried to find the DVD version to post here but the only ones I found started from the actual song and not the intro.

 

http://www.youtube.com/watch?v=nUviPNluCP8

 

 

Thanks!

Share this post


Link to post
Share on other sites

Unrelated, but before the Swindon gig, they soundchecked a really raw version of Shock Shock without Mike, sounded massive. Still sounded epic on the night with Mike, though.

Share this post


Link to post
Share on other sites

Hey musers :)

 

as the title says i was hoping someone can tab out what matt played in unintended during those 2000 gigs when chris used to play on the acoustic and he used to play on the electric.I want tabs for the electric part which matt did.Also the effect he used was it some kind of filter with delay?

I'm not good at tabbing stuff so i would appreciate if someone can tab it out

 

heres a vid for reference

 

http://www.youtube.com/watch?v=5j4W7_cR59g

Share this post


Link to post
Share on other sites
Hey musers :)

 

as the title says i was hoping someone can tab out what matt played in unintended during those 2000 gigs when chris used to play on the acoustic and he used to play on the electric.I want tabs for the electric part which matt did.Also the effect he used was it some kind of filter with delay?

I'm not good at tabbing stuff so i would appreciate if someone can tab it out

 

heres a vid for reference

 

http://www.youtube.com/watch?v=5j4W7_cR59g

would some one please reply -_-

Share this post


Link to post
Share on other sites
I think not...

 

Well next time try work it yourself then

 

 

G---------------------------------8h9p8--------8h9p8--------

D------------------------9--10-------------10--------------10-

A------10---------------------------------------------------------

E--0--------0--0--0----------------------------------------------

Share this post


Link to post
Share on other sites
Well next time try work it yourself then

 

 

G---------------------------------8h9p8--------8h9p8--------

D------------------------9--10-------------10--------------10-

A------10---------------------------------------------------------

E--0--------0--0--0----------------------------------------------

 

Shit! You have a brain!:D

Thank you:)

Share this post


Link to post
Share on other sites

Does anyone know what Matt played during the verses of Darkshines at Reading 2011? :)

Share this post


Link to post
Share on other sites
Does anyone know what Matt played during the verses of Darkshines at Reading 2011? :)

 

Just the chords with a bit of the whammy bar no?

Share this post


Link to post
Share on other sites

Create an account or sign in to comment

You need to be a member in order to leave a comment

Create an account

Sign up for a new account in our community. It's easy!

Register a new account

Sign in

Already have an account? Sign in here.

Sign In Now

×
×
  • Create New...