Jump to content

Recommended Posts

anyone tabbed the intro of the studio version of deadstar? the bit where its like theres a couple of chords then the 2.5 fret d string harmonic?

 

cheers

 

The chord is...

 

E--------------------------

B---10-------10---------

G---13-------13---------

D---12-0-0--12-0-0---

A--------------------------

D--------------------------

 

& so on...

Link to comment
Share on other sites

same, anyone got the chords for the live intro to KOC, before the tremelo picking intro?

 

He plays around with it loads...

 

Jools Holland version...

E---0---0---0---0---

B---3---0---1---0---

G---0---0---0---0---

D---2---2---2---2---

A---2---2---2---2---

E---0---0---0---0---

 

Random other version...

E---0---0---0---0---0---

B---0---3---2---1---0---

G---0---0---0---0---0---

D---2---2---2---2---2---

A---2---2---2---2---2---

E---0---0---0---0---0---

 

This makes me look like a right Muse geek :rolleyes:

Link to comment
Share on other sites

He plays around with it loads...

 

Jools Holland version...

E---0---0---0---0---

B---3---0---1---0---

G---0---0---0---0---

D---2---2---2---2---

A---2---2---2---2---

E---0---0---0---0---

 

Random other version...

E---0---0---0---0---0---

B---0---3---2---1---0---

G---0---0---0---0---0---

D---2---2---2---2---2---

A---2---2---2---2---2---

E---0---0---0---0---0---

 

This makes me look like a right Muse geek :rolleyes:

 

haha thanks

Link to comment
Share on other sites

The after sunburn/before butterflies and hurricanes riff at glastonbury?

 

e--------------------------------------------------------------------

b--------------------------------------------------------------------

g------------10-----10-12-10--------------9-----9-12-9-----

d---12-12------12-------------12-11-11---11-----------11-Repeat! Quick March!

a--------------------------------------------------------------------

e--------------------------------------------------------------------

Link to comment
Share on other sites

how 2 ply plug in baby plz kthxbai lolz

 

e---------------------------------------------------------------------------------------

f-----------------------------------------------------------------------------------8----

t-0-5-8-6-3-5-------1---3-----------------------------------------------------7----

b----------------4---2------------------------------------------------------------6-----

a-------------------5----5----5--666(sig of the devil)-Channel 9!----7-----

d-----------------------------------------------------------------------------------0---

Link to comment
Share on other sites

  • 2 months later...

 

From 1:50 to 2:15??

 

Its the bass line that chris plays...

 

e--------------------I

b--------------------I

g---11---------11-I

d------------11-----I

a-9----9--9--------I

e---------------------I

 

Thats the F# pattern, then move the shape up all a semi tone to G, Then to D with 10th fret E string being the best place....

Link to comment
Share on other sites

The maggie's farm riff matt plays? (tab)

 

Not sure if this is correct but i play:

E|-----------------------------------------

B|-----------------------------------------

G|-----------------------------------------

D|-------------------------------0---------

A|-------------------------0--2-----2--0--

E|0--0--3--0--3--5--0--3-----------------3

 

Then just mess around with that when you repeat it.

 

 

http://www.youtube.com/watch?v=5bak50_s6r4

 

What does Chris play between 4:13 and 4:17? When Matt is screaming YEAH.

Link to comment
Share on other sites

thats crazy, um

 

Im thinking hes playing

 

G----------------------------------------------------------------------------------

D-----------------------------12/13/14----------------------------------------

A----------------------------------------------------------------------------------

E--0--0--10/12--10--0-------------------------------------------------------

 

thats because it looks around the same place on the fretboard in the video, and it would kinda fit in to the song I suppose. But seriously I duno.

Link to comment
Share on other sites

Not sure if this is correct but i play:

E|-----------------------------------------

B|-----------------------------------------

G|-----------------------------------------

D|-------------------------------0---------

A|-------------------------0--2-----2--0--

E|0--0--3--0--3--5--0--3-----------------3

 

Then just mess around with that when you repeat it.

 

 

http://www.youtube.com/watch?v=5bak50_s6r4

 

What does Chris play between 4:13 and 4:17? When Matt is screaming YEAH.

 

That's wrong, the A string part is what I tabbed out on the previous page :)

Link to comment
Share on other sites

its just some blues style licks in E

 

in cant be bothered to tab it because its so short, but itll use the notes:

 

E--12----------------------------------

B-------15--12------------------------

G------------------15--14--12-------

D-----------------------------------12-

 

i can hear the first note is a bend of the B string at 15th fret (bending up to the pitch of 17th) with E held at 12th.

 

the last note is also definitely a 14th fret on the D string. you should be able to work the rest out given that much

Link to comment
Share on other sites

Create an account or sign in to comment

You need to be a member in order to leave a comment

Create an account

Sign up for a new account in our community. It's easy!

Register a new account

Sign in

Already have an account? Sign in here.

Sign In Now
 Share

×
×
  • Create New...