Jump to content

Recommended Posts

Just the chords with a bit of the whammy bar no?

 

Indeed, but I'm having a bit of trouble figuring out which chords, I only started playing just over half a year ago so I don't have much of an ear for notes yet :p... and when I've tried to figure them out with tabs of album version it doesn't seem to work quite right.

Link to comment
Share on other sites

Indeed, but I'm having a bit of trouble figuring out which chords, I only started playing just over half a year ago so I don't have much of an ear for notes yet :p... and when I've tried to figure them out with tabs of album version it doesn't seem to work quite right.

 

Ah right. I'll have a look at it later. Keep trying varieites of the chord in different positions along the neck! :)

Link to comment
Share on other sites

Indeed, but I'm having a bit of trouble figuring out which chords, I only started playing just over half a year ago so I don't have much of an ear for notes yet :p... and when I've tried to figure them out with tabs of album version it doesn't seem to work quite right.

 

Are you sure you're tuned correctly?

Link to comment
Share on other sites

Ah right. I'll have a look at it later. Keep trying varieites of the chord in different positions along the neck! :)

 

Will do, thanks for the help :).

 

Are you sure you're tuned correctly?

 

I think so, he had it half a step down at Reading right?

Link to comment
Share on other sites

I think so, he had it half a step down at Reading right?

 

Are you finding that the first few chords are fine but later it doesn't? If so then your whammy-ing could be knocking your guitar out-of-tune. If not then just try what Dominic said.

Link to comment
Share on other sites

  • 2 weeks later...
  • 4 weeks later...

Panic Station Bass tab.

 

 

 

G|-----------------------------------------------------------------------------------------|

D|-----------------------------------------------------------------------------------------|

A|-----------------------------------------------------------------------------------------|

E|-12/-------------------------------------------------------------------------------------|

 

G|-------------7-/9------------19-19-19-19-------------7-/9------------19-19-19-19---------|

D|-------------7-/9------------19-19-19-19-------------7-/9------------19-19-19-19---------|

A|-----------------------------------------------------------------------------------------|

E|-0---0---0---------0-0-0-0---------------0---0---0---------0-0-0-0-----------------------|

 

Verse 1

 

G|-------------7-/9------------19-19-19-19-------------7-/9------------19-19-19-19---------|

D|-------------7-/9------------19-19-19-19-------------7-/9------------19-19-19-19---------|

A|-----------------------------------------------------------------------------------------|

E|-0---0---0---------0-0-0-0---------------0---0---0---------0-0-0-0-----------------------|

 

G|-------------13-/12------------19-19-19-19-------------7-/9-------------19\--------------|

D|-------------13-/12------------19-19-19-19-------------7-/9-------------19\--------------|

A|-0---0---0-------------------------------------------------------------------------------|

E|---------------------3-3-3-3---------------0---0---0---------0-0-0-0---------------------|

 

Chorus 1

 

G|-------------------------------------------------------------7---8-----------------------|

D|---2---2---2---4---5---5---5---6---7---7---7---9---10---10-------------------------------|

A|-----------------------------------------------------------5---6-------------------------|

E|-0---0---0---2---3---3---3---4---5---5---5---7---8----8----------------------------------|

 

G|-----------------------------------------------------------------------------7\----------|

D|---2---2---2---4---5---5---5---6---7---7---7---9-----------------------------7\----------|

A|-----------------------------------------------------------------------------------------|

E|-0---0---0---2---3---3---3---4---5---5---5---7---8---------------------------------------|

 

After-Chorus

 

G|-------------7-/9------------19-19-19-19-------------7-/9------------19-19-19-19---------|

D|-------------7-/9------------19-19-19-19-------------7-/9------------19-19-19-19---------|

A|-----------------------------------------------------------------------------------------|

E|-0---0---0---------0-0-0-0---------------0---0---0---------0-0-0-0-----------------------|

 

Verse 2

 

G|-------------7-/9------------19-19-19-19-------------7-/9------------19-19-19-19---------|

D|-------------7-/9------------19-19-19-19-------------7-/9------------19-19-19-19---------|

A|-----------------------------------------------------------------------------------------|

E|-0---0---0---------0-0-0-0---------------0---0---0---------0-0-0-0-----------------------|

 

G|-------------13-13-13/12------------19-19-19-19-------------7-/9-------------19-19-------|

D|-------------13-13-13/12------------19-19-19-19-------------7-/9-------------19-19-------|

A|-0---0---0-------------------------------------------------------------------------------|

E|--------------------------3-3-3-3---------------0---0---0---------0-0-0-0----------15----|

 

 

 

G|-------------7-/9------------19-19-19-19-------------7-/9------------19-19-19-19---------|

D|-------------7-/9------------19-19-19-19-------------7-/9------------19-19-19-19---------|

A|-----------------------------------------------------------------------------------------|

E|-0---0---0---------0-0-0-0---------------0---0---0---------0-0-0-0-----------------------|

 

G|-------------13-/12------------19-19-19-19-------------7-/9-------------19\--------------|

D|-------------13-/12------------19-19-19-19-------------7-/9-------------19\--------------|

A|-0---0---0-------------------------------------------------------------------------------|

E|---------------------3-3-3-3---------------0---0---0---------0-0-0-0---------------------|

 

G|-------------------------------------------------------------7---8-----------------------|

D|---2---2---2---4---5---5---5---6---7---7---7---9---10---10-------------------------------|

A|-----------------------------------------------------------5---6-------------------------| x2

E|-0---0---0---2---3---3---3---4---5---5---5---7---8----8----------------------------------|

 

Chorus 3

 

G|-------------------------------------------------------------7---8-----------------------|

D|---2---2---2---4---5---5---5---6---7---7---7---9---10---10-------------------------------|

A|-----------------------------------------------------------5---6-------------------------| x3

E|-0---0---0---2---3---3---3---4---5---5---5---7---8----8----------------------------------|

 

G|-----------------------------------------------------------------------------7\----------|

D|---2---2---2---4---5---5---5---6---7---7---7---9-----------------------------7\----------|

A|-----------------------------------------------------------------------------------------|

E|-0---0---0---2---3---3---3---4---5---5---5---7---8---------------------------------------|

 

Outro

 

G|-------------7-/9------------19-19-19-19-------------7-/9------------19-19-19-19---------|

D|-------------7-/9------------19-19-19-19-------------7-/9------------19-19-19-19---------|

A|-----------------------------------------------------------------------------------------|

E|-0---0---0---------0-0-0-0---------------0---0---0---------0-0-0-0-----------------------|

 

Link to comment
Share on other sites

Haha, watching Jools turns out the original version of the 'solo' of Supremacy was the 'right' version

 

I was thinking that myself when i was re-watching it earlier :LOL:

 

There's a full tab of Animals up on Ultimate-guitar now too, haven't had too much time to check it all out but it seems pretty good.

 

Infact i think pretty much the entire album is now tabed on UG...

Edited by matt <3 muse
Link to comment
Share on other sites

Anyone got the Animals clean solo down? I'm having trouble getting it to sound right.

 

EDIT: I think the song might be tuned a half step down. Can someone also confirm or deny this?

Matt uses a guitar that is half a step down to record, he starts on the 9th fret on the first guitar note of the song (would be 8th fret on standard tuning). You can see it on the Making of 2nd Law video.

 

Also, I am in the process of tabbing animals, do you mean this clean solo part? The tab below is for Standard Tuning, with the low E dropped to Eb (necessary to play the riff at the end of the song).

 

 

E |----------------------------------------------------------|
B |----------------------------------------------------------|
G |------------11-15-13-11-13-11-10h11p10---10---------------|
D |----------13---------------------------13--13-11--11------|
A |--------13--------------------------------------14--14-13-|
Eb|---12-15--------------------------------------------------|

E |-------------------------------------------------------------|
B |------------12-16-14-12-14-12-11h12p11---11------------------|
G |----------13---------------------------13--13-11-13-11-10----|
D |--------13------------------------------------------------13-|
A |---11-14-----------------------------------------------------|
Eb|-------------------------------------------------------------|

Edited by Minimal
Link to comment
Share on other sites

Create an account or sign in to comment

You need to be a member in order to leave a comment

Create an account

Sign up for a new account in our community. It's easy!

Register a new account

Sign in

Already have an account? Sign in here.

Sign In Now
 Share

×
×
  • Create New...