Jump to content

Recommended Posts

yeah I know which was a bad idea. just stop thinking your better than us because were younger. we are not the immature noobs you make us out to be. or imply anyway.

I never said I was better then you. Cuddles now/Group hug? :supersad:

Edited by Samcoma
Link to comment
Share on other sites

  • 4 weeks later...
  • 1 month later...
The chord is...

 

E--------------------------

B---10-------10---------

G---13-------13---------

D---12-0-0--12-0-0---

A--------------------------

D--------------------------

 

& so on...

 

 

yeah I know that post is OLD...

but that chord is wrong.

 

its actually

 

E--------------------------

B--------------------------

G---1-------1------------

D---0-0-0--0-0-0------

A--------------------------

D--------------------------

 

 

god im a cunt

Link to comment
Share on other sites

yeah I know that post is OLD...

but that chord is wrong.

 

its actually

 

E--------------------------

B--------------------------

G---1-------1------------

D---0-0-0--0-0-0------

A--------------------------

D--------------------------

 

 

god im a cunt

 

Just co's i cant tell if you were being a "cunt" in general

 

http://uk.youtube.com/watch?v=98FN9ZFWOXk

 

19sec-21sec

Link to comment
Share on other sites

  • 3 months later...

I know its pretty simple but Im not that good on guitar and I cant be bothered to go through the trail and error of working it out so I was wondering if anyone could tell me the guitar part to man with the harmonica? all the tabs on the net I have found are guitar versions of the harmonica part. NOT THAT! the guitar part as heard here played by muse in V festival:

http://www.youtube.com/watch?v=Zb_41IZjaW0

also if anyone can tab the arpeggios which sound like their being played on a synth of some kind into guitar thatd b brilliant too! starting at about 40 seconds onwards...

hope someone can help! thanks!

Link to comment
Share on other sites

  • 2 months later...

-------------------------------|------------------------------|

-------------------------------|------------------------------|

--9----9----9----7--9-9b----7h-|--9----9----9----9--------7-9-|

-------------------------------|----------------------7-9-----|

-------------------------------|------------------------------|

-------------------------------|------------------------------|

 

 

 

------------------------------------|----------------------------------|

------------------------------------|----------------------------------|

--10----10----10----9--10-10b----9h-|--10----10----10----10--------7-9-|

------------------------------------|--------------------------7-9-----|

------------------------------------|----------------------------------|

------------------------------------|----------------------------------|

 

 

 

-------------------------------|-------------------------------|

--10-----10-----10-------------|--10-----10-----10-------------|

--12b----12b----12b------------|--12b----12b----12b------------|

-------------------------------|-------------------------------|

-------------------------------|-------------------------------|

-------------------------------|-------------------------------|

 

 

-------------------------------|-------------------------------------|

--12-----12-----12-------------|-------------------------------------|

--14b----14b----14b---L--------|-------------------------------------|

-------------------------------|-------------------------------------|

-------------------------------|--8-----8-----10----10----11----11---|

-------------------------------|--8---0-8---0-10----10----11----11---|

 

 

 

----------------------|

----------------------|

----------------------|

----------------------|

--12\-----------------|

--12\-----------------|

Edited by teej212
Link to comment
Share on other sites

Create an account or sign in to comment

You need to be a member in order to leave a comment

Create an account

Sign up for a new account in our community. It's easy!

Register a new account

Sign in

Already have an account? Sign in here.

Sign In Now
 Share

×
×
  • Create New...