Jump to content

Recommended Posts

I really think this thread should be a sticky, as I'm probably gonna come up with a few questions next few days...

 

But New Born...for the chorus, does everyone else play what's in the tab book? Because I tend to (I don't really know what the point of this question is but yeah)

Link to comment
Share on other sites

I really think this thread should be a sticky, as I'm probably gonna come up with a few questions next few days...

 

But New Born...for the chorus, does everyone else play what's in the tab book? Because I tend to (I don't really know what the point of this question is but yeah)

 

Um, what? What's the point of that question? :LOL:

But yeah, I play what's in the tab book.

Link to comment
Share on other sites

I really think this thread should be a sticky, as I'm probably gonna come up with a few questions next few days...

 

But New Born...for the chorus, does everyone else play what's in the tab book? Because I tend to (I don't really know what the point of this question is but yeah)

 

i just play power chords. the opening riff is what matters

 

 

 

yeah, i play it like they have in the tab book.

Link to comment
Share on other sites

It's an early version of Take a Bow. Just look up chords for that song. It might be in a different key, but thats pretty much it.

 

Edit: Here

 

Thanks but I have learned playing piano in a music academy and I'm pretty bad at playing randomly with something only based on chords like this. :/

 

It'd be nice to have piano sheets.

 

But thanks for your answer tho, it's nice of you. :)

 

 

Is anyone willing to make a transcription of this video (TaB again) ? :$

 

[YT]

[/YT]
Link to comment
Share on other sites

Hey guys,

 

I've made a research but didn't find anything about this so...

I'm looking for piano sheets or piano arrangements of the TaB intro Matt used to play.

Here's what I'm talking about :

 

[YT]

[/YT]

 

The small thing played before Space Dementia starts.

 

Does anyone have the sheets for this, pls ? :)

I've checked on Google and so on but can't seem to find it... :/

 

I play it starting on a C major in both hands, with a random rhythm, and then raise the highest note on the chord (the G) to a semitone above, G#. Return back to G, do that a few times, then raise both the G and E (to an F), return it, back to that, and then raise the bottom note © a semitone. The chord has changed to a C# major. Sounds confusing! Repeat this on chords getting higher and higher, I go to Eb, it may be different. I play it in different keys to jazz it up too. In the actual TaB, I believe (?) the first chord is D.

 

so-

C--C--C--C--C---C--C--C---C#

E--E---E--E--E--F---E---F--F Continue

G--G#-G--G#-G--G#-G--G#-G#

Link to comment
Share on other sites

I really think this thread should be a sticky, as I'm probably gonna come up with a few questions next few days...

 

But New Born...for the chorus, does everyone else play what's in the tab book? Because I tend to (I don't really know what the point of this question is but yeah)

 

I play whats in the Tab Book

Link to comment
Share on other sites

I really think this thread should be a sticky, as I'm probably gonna come up with a few questions next few days...

 

But New Born...for the chorus, does everyone else play what's in the tab book? Because I tend to (I don't really know what the point of this question is but yeah)

 

I've never really played the chorus, I can't seem to make sense of it in the tab book (this is someone who is doing a music degree next year :facepalm: ) Although I've never looked at it in any detail.

Link to comment
Share on other sites

 

Anyone know 1:28 - 1:40

 

This is just the Hullabaloo clip of Uno but this was played often when Uno was played live.

I've never found tabs for it so any help would be appreciated, cheers!

 

e|--12--12--|    |--12--12--|    |--14--14--| |--12--12--| |--12--12--|
B|--12--12--|    |--13--13--|    |--12--12--| |--13--13--| |--12--12--|
G|--12--12--| x2 |--14--14--| x2 |--14--14--| |--14--14--| |--12--12--|
D|----------|    |----------|    |----------| |----------| |----------|
A|----------|    |----------|    |----------| |----------| |----------|
E|----------|    |----------|    |----------| |----------| |----------|

Link to comment
Share on other sites

 

Anyone know 1:28 - 1:40

 

This is just the Hullabaloo clip of Uno but this was played often when Uno was played live.

I've never found tabs for it so any help would be appreciated, cheers!

 

No offence but couldn't you have worked that out yourself...? I mean, you've 3 clear views of Matt... plus the sound itself...

Link to comment
Share on other sites

e--18-----------------------------------------------------------------------------------------------18-----------

B------17-------18------------------------------------------------------------------18---------------17-------

G----------16-------17-------18--------------------------------------18---------------17---------------16--

D--------------------------16-------17------18----------18--------------17---------------16-----------------

A-----------------------------------------16------17----------17--------------16-------------------------------

D-------------------------------------------------------18----------18--------------------------------------------

 

Or some variation?

Link to comment
Share on other sites

e--18-----------------------------------------------------------------------------------------------18-----------

B------17-------18------------------------------------------------------------------18---------------17-------

G----------16-------17-------18--------------------------------------18---------------17---------------16--

D--------------------------16-------17------18----------18--------------17---------------16-----------------

A-----------------------------------------16------17----------17--------------16-------------------------------

D-------------------------------------------------------18----------18--------------------------------------------

 

Or some variation?

 

Spot on, cheers ;)

Link to comment
Share on other sites

e--18-----------------------------------------------------------------------------------------------18-----------

B------17-------18------------------------------------------------------------------18---------------17-------

G----------16-------17-------18--------------------------------------18---------------17---------------16--

D--------------------------16-------17------18----------18--------------17---------------16-----------------

A-----------------------------------------16------17----------17--------------16-------------------------------

D-------------------------------------------------------18----------18--------------------------------------------

 

Or some variation?

 

Yeah, it's something like that.

 

Very similar to 0:59

 

http://www.youtube.com/watch?v=9qSx5MfGk8w

Link to comment
Share on other sites

Create an account or sign in to comment

You need to be a member in order to leave a comment

Create an account

Sign up for a new account in our community. It's easy!

Register a new account

Sign in

Already have an account? Sign in here.

Sign In Now
 Share

×
×
  • Create New...