Jump to content

Recommended Posts

really? most of it is the studio version and the middle part is very easy o figure out. give it a shot and if you cant get it ill see what i can come up with

 

 

after my wisdom teeth are removed tomorrow :facepalm:

 

 

btw, what happened to the whammy smiley?

Link to comment
Share on other sites

i cant swallow so i constantly have a mouthful of blood and my allergies were kicking up and i almost had to have to do the operation awake in fear of me suffocating

 

i said if that were the case i wouldnt do it. i ended up just taking a zyrtec d and waiting another hour

Link to comment
Share on other sites

does anyone have the piano outro tab from muse at dundee 2006 in the song sunburn?

i know its originally piano, but he played it using his guitar, with his digitech whammy, im only interested in the tabs not the whammy for that part. thanks.

 

Also what settings does he use to get that trippy delay sound at the beginning of that song?

 

url enclosed;

 

http://www.youtube.com/watch?v=7X8T8oY38K0

Link to comment
Share on other sites

does anyone have the piano outro tab from muse at dundee 2006 in the song sunburn?

i know its originally piano, but he played it using his guitar, with his digitech whammy, im only interested in the tabs not the whammy for that part. thanks.

 

Also what settings does he use to get that trippy delay sound at the beginning of that song?

 

url enclosed;

 

http://www.youtube.com/watch?v=7X8T8oY38K0

 

heres my sunburn piano tab:

 

G --0--3--5-----0--3--6-5----0--3--5--3--0-------

D --0--3--5-----0--3--6-5----0--3--5--3--0------- repeat 4x

 

then

 

A -----------------------1--1-------------------------4--4---4-4--

E ----1--1-1--x-x-x-x------------4--4-4--x-x-x-x--------------- repeat x2

 

after that, the other bit, which is:

 

E---------0---0--------------0-----------------0-1-0-------------------------

B--1-1-3---1---3---1-1-3-----1-0---1-1-3----------3-1-0-------0-1-1~--

G----------------------------------------------------------------0-2-----------

Link to comment
Share on other sites

the "trippy" delay is delay and his sustainer

 

and heres the tab, its pretty tricky, good luck

 

---------------------------------|

---------------------------------|

-7---------------------10-7-10-7-|

---9-6-------------9-6-----------|

-------8-5-----8-5---------------|

-----------7-4-------------------|

 

 

----------------------------------|----------------------------------|

----------------------------------|----------------------------------|

--9-6---------------------9-6-9-6-|--8-5---------------------8-5-8-5-|

------8-5-------------8-5---------|------7-4-------------7-4---------|

----------7-4-----7-4-------------|----------6-3-----6-3-------------|

--------------6-3-----------------|--------------5-2-----------------|

 

 

----------------------------------|-------------------------------------|

----------------------------------|-------------------------------------|

--7-4---------------------7-4-7-4-|--10-7---------------------10-7-10-7-|

------6-3-------------6-3---------|-------9-6-------------9-6-----------|

----------5-2-----5-2-------------|-----------8-5-----8-5---------------|

--------------4-1-----------------|---------------7-4-------------------|

 

 

----------------------------------|----------------------------------|

----------------------------------|----------------------------------|

--9-6---------------------9-6-9-6-|--8-5---------------------8-5-8-5-|

------8-5-------------8-5---------|------7-4-------------7-4---------|

----------7-4-----7-4-------------|----------6-3-----6-3-------------|

--------------6-3-----------------|--------------5-2-----------------|

 

 

----------------------------------|

----------------------------------|

--7-4---------------------7-4-7-4-|

------6-3-------------6-3---------|

----------5-2-----5-2-------------|

--------------4-1-----------------|

Edited by teej212
Link to comment
Share on other sites

the "trippy" delay is delay and his sustainer

 

and heres the tab, its pretty tricky, good luck

 

---------------------------------|

---------------------------------|

-7---------------------10-7-10-7-|

---9-6-------------9-6-----------|

-------8-5-----8-5---------------|

-----------7-4-------------------|

 

 

----------------------------------|----------------------------------|

----------------------------------|----------------------------------|

--9-6---------------------9-6-9-6-|--8-5---------------------8-5-8-5-|

------8-5-------------8-5---------|------7-4-------------7-4---------|

----------7-4-----7-4-------------|----------6-3-----6-3-------------|

--------------6-3-----------------|--------------5-2-----------------|

 

 

----------------------------------|-------------------------------------|

----------------------------------|-------------------------------------|

--7-4---------------------7-4-7-4-|--10-7---------------------10-7-10-7-|

------6-3-------------6-3---------|-------9-6-------------9-6-----------|

----------5-2-----5-2-------------|-----------8-5-----8-5---------------|

--------------4-1-----------------|---------------7-4-------------------|

 

 

----------------------------------|----------------------------------|

----------------------------------|----------------------------------|

--9-6---------------------9-6-9-6-|--8-5---------------------8-5-8-5-|

------8-5-------------8-5---------|------7-4-------------7-4---------|

----------7-4-----7-4-------------|----------6-3-----6-3-------------|

--------------6-3-----------------|--------------5-2-----------------|

 

 

----------------------------------|

----------------------------------|

--7-4---------------------7-4-7-4-|

------6-3-------------6-3---------|

----------5-2-----5-2-------------|

--------------4-1-----------------|

 

fake!!

Link to comment
Share on other sites

-5-4-----------------------------

-----6-5h6p5s3h5-5-3-2-2h3p2-----

-----------------------------3-2-

---------------------------------

---------------------------------

---------------------------------

 

im done for a while. im outro tabbed out

Link to comment
Share on other sites

-5-4-----------------------------

-----6-5h6p5s3h5-5-3-2-2h3p2-----

-----------------------------3-2-

---------------------------------

---------------------------------

---------------------------------

 

im done for a while. im outro tabbed out

 

 

cheers mate

*adds cookie to account*

Link to comment
Share on other sites

  • 2 weeks later...

Create an account or sign in to comment

You need to be a member in order to leave a comment

Create an account

Sign up for a new account in our community. It's easy!

Register a new account

Sign in

Already have an account? Sign in here.

Sign In Now
 Share

×
×
  • Create New...