Jump to content

Recommended Posts

its just some blues style licks in E

 

in cant be bothered to tab it because its so short, but itll use the notes:

 

E--12----------------------------------

B-------15--12------------------------

G------------------15--14--12-------

D-----------------------------------12-

 

i can hear the first note is a bend of the B string at 15th fret (bending up to the pitch of 17th) with E held at 12th.

 

the last note is also definitely a 14th fret on the D string. you should be able to work the rest out given that much

 

I really do appreciate it man. I'm still trying to get better with note recognition.

Share this post


Link to post
Share on other sites
I really do appreciate it man. I'm still trying to get better with note recognition.

 

no worries.. if can spot the tonic note, its pretty easy to guess what someone is playing if its a bluesy lick and you know the "area" theyre playing in

Share this post


Link to post
Share on other sites

should get this thread stickied noone seems to post tab requests in it they just make a new thread maybe if this was stickied people might see it before they post a new thread

Share this post


Link to post
Share on other sites
Guest bshuker

Yeah I agree, BUT we have about 15 or so threads that need stickying, like, The MOTP Effect thread, What order should my effects go in? and all of those. Because we get the same thing over and over, plus the Pictures of Gear and Banter threads too would be useful stickied. It would make so much difference and get rid of all the bullshit threads we get.

Share this post


Link to post
Share on other sites

yeah suppose you have a point plus doesnt mean just because they get stickied that new people will stick to posting in them most just make a new thread instead of searching or even having a slight look round

Share this post


Link to post
Share on other sites

 

0.25

 

this effect is made by putting your dick in a blender and fucking off.

Share this post


Link to post
Share on other sites
its just some blues style licks in E

 

in cant be bothered to tab it because its so short, but itll use the notes:

 

E--12----------------------------------

B-------15--12------------------------

G------------------15--14--12-------

D-----------------------------------12-

 

i can hear the first note is a bend of the B string at 15th fret (bending up to the pitch of 17th) with E held at 12th.

 

the last note is also definitely a 14th fret on the D string. you should be able to work the rest out given that much

 

Yeah that pretty close to what I played I'll tab it out when I got time :)

Share this post


Link to post
Share on other sites
http://uk.youtube.com/watch?v=6fSvmhX6oa8

does anyone have a tab for the riff at the beginning? It's the same riff as from the HAARP DVD on the 'Improv' track

 

In other words - BUMP

 

somebody else already tabbed it out once so kudos for him

 

Slap this in Notepad Dude!

 

Riff 1

E-------------------------------------------I

B---8---------------------------------------I

G---7---------------------------------------I

D---6---------------------------------------I

A---7---------------5--5h7-5-0h2p0----------I

E-0----0-3-5-6-7--7--7-------------3(bu1/4)-I

 

This is the dude ( VernonKay ) playing the tab

 

XMqhDHndBfU

Share this post


Link to post
Share on other sites

first person to tab out the picked intro before unintended on the haarp cd/dvd wins a pie

Share this post


Link to post
Share on other sites
first person to tab out the picked intro before unintended on the haarp cd/dvd wins a pie

 

Its on muselive somwhere. if you search here for sommat like "Unintended tab" it comes up with a link in one of the threads.

Share this post


Link to post
Share on other sites
first person to tab out the picked intro before unintended on the haarp cd/dvd wins a pie

 

Capo 5th fret and this

 

e-------------0--------------

b-----------4--4-----4------

g---------2------2-----2----

d-------2----------2-----2-

a--0-0----------------------

e---------------------------- x2

 

 

e-------------0--------------

b-----------4--4-----4------

g---------0------0-----0----

d-------2----------2-----2-

a--0-0----------------------

e---------------------------- x2

 

 

e-------------0--------------

b-----------4--4-----4------

g---------2------2-----2----

d-------4----------4-----4-

a--0-0----------------------

e---------------------------- x2

 

 

e-------------0--------------

b-----------4--4-----4------

g---------2------2-----2----

d-------3----------3-----3-

a--0-0----------------------

e---------------------------- x2

 

 

e-------------0--------------

b-----------2--2-----2------

g---------4------4-----4----

d-------2----------2-----2-

a--0-0----------------------

e---------------------------- x2

 

 

e-------------0--------------

b-----------1--1-----1------

g---------4------4-----4----

d-------2----------2-----2-

a--0-0----------------------

e---------------------------- x2

 

 

e-------------0--------------

b-----------0--0-----0------

g---------2------2-----2----

d-------2----------2-----2-

a--0-------------------------

e-----3----------------------

 

 

e-------------0--------------

b-----------0--0-----0------

g---------2------2-----2----

d-------2----------2-----2-

a----------------------------

e--3-2----------------------

 

e-------------0--------------

b-----------0--0-----0------

g---------2------2-----2----

d-------2----------2-----2-

a----------------------------

e--2-1----------------------

 

e-------------0--------------

b-----------0--0-----0------

g---------2------2-----2----

d-------2----------2-----2-

a----------------------------

e--1-0----------------------

 

e-------------0--------------

b-----------0--0-----0------

g---------2------2-----2----

d-------2----------2-----2-

a----------------------------

e--0-0----------------------

 

e-------------0--------------

b-----------0--0-----0------

g---------1------1-----2----

d-------2----------2-----2-

a----------------------------

e--0-0----------------------

 

 

e---0----

b---0----

g---1----

d---2----

a---2---

e---0---- < slow strum

 

Where is my pie ?

Share this post


Link to post
Share on other sites

haha nm, just worked it out for myself. cba to tab out the picking pattern but the chord shapes I worked out were:

 

capo 5th fret

 

x 0 7 6 4 0

 

x 0 5 6 4 0

 

x 0 4 5 4 0

 

x 0 3 4 3 0

 

x 0 2 4 2 0

 

x 0 2 5 0 0

 

3 x 2 5 0 0

 

2 x 2 2 0 0

 

1 x 2 2 0 0

 

0 2 2 2 0 0

 

0 2 2 1 0 0

Share this post


Link to post
Share on other sites

oh yeah and for completeness:

 

3.14159265358979

 

:p

 

(ps: no I didn't have to google that)

Share this post


Link to post
Share on other sites
not really a tab request but how do you do them behind the nut harmonic things cant work out what you do to do em is it like a pinch harmonic behind the nut or just one hard pick sure you know what i mean if not its the thing at 1.36

 

http://uk.youtube.com/watch?v=MdR_wMt-dK4

 

just strum it hard on every string past the nut, try it!

Share this post


Link to post
Share on other sites

Create an account or sign in to comment

You need to be a member in order to leave a comment

Create an account

Sign up for a new account in our community. It's easy!

Register a new account

Sign in

Already have an account? Sign in here.

Sign In Now

×
×
  • Create New...