Jump to content

Dead Inside Tab


Priad-Luabe
 Share

Recommended Posts

Hey,

 

Thanks for posting the tab I was looking for that missing link between 2nd chord and 3rd in 2nd part of song, you found it. Tab in general is OK, there are some things that doesn't fit for me like:

 

B|4--4-4----4--4-4----8--8-8----6--6-6

G|5--5-5----5--5-5----8--8-8----7--7-7

D|5--5-5----6--6-6----8--8-8----8--8-8

A|3--3-3----6--6-6----6--6-6----5--5-5

 

This is ok but:

 

G|5--5-5----5--5-5--7-8--8-8--8-7--7-7

D|5--5-5----5--5-5--5-8--8-8--8-8--8-8

A|3--3-3----3--3-3--5-6--6-6--6-5--5-5

 

This seems wrong, first chord is ok, 2nd seems wrong for me, the link "775" is ok and rest is ok.

 

Also I would suggest make you live tab:

 

This video has good view for what is Matt is playing and he plays the Chord Part like really really different way. If you could actually see what is this I would be in heaven, also that's what I think he plays studio, especially for last chorus you can see in studio the higher notes and he does them live. I can play the tabs but I can't see what is he playing due to lack of theory knowledge.

 

Aswell you can see different ending on solo, not B and E strings but B and G.

 

If you could tab this live version I would be so fucking happy aswell other people I believe :)

Link to comment
Share on other sites

correction for the solo (sourced from here:

)

 

E|-------------------------------------------------
B|--8--------------------------4---4--4--4---------
G|--10b(12)--------------------6b7-6--5--3-3-3tr5--
D|----------------------7b-------------------------
A|------------------6p0----------------------------
C|--------0-0-3p0-7--------------------------------

E|----------------------------------------------------------------
B|--8-------------------------------------16----15----13----11----
G|--10b(12)----------------------14b15----19b20-18b19-16b17-14b15-
D|-----------------12h13p12---------------------------------------
A|--------------------------15p0----------------------------------
C|--------0-0-12p0------------------------------------------------

Edited by Doog
Link to comment
Share on other sites

correction for the solo (sourced from here:
)

 

E|-------------------------------------------------
B|--8--------------------------4---4--4--4---------
G|--10b(12)--------------------6b7-6--5--3-3-3tr5--
D|----------------------7b-------------------------
A|------------------6p0----------------------------
C|--------0-0-3p0-7--------------------------------

E|----------------------------------------------------------------
B|--8-------------------------------------16----15----13----11----
G|--10b(12)----------------------14b15----19b20-18b19-16b17-14b15-
D|-----------------12h13p12---------------------------------------
A|--------------------------15p0----------------------------------
C|--------0-0-12p0------------------------------------------------

 

i wish i had that video yesterday :LOL:

Link to comment
Share on other sites

watching that video again I think I could probably give the chords a go tomorrow. I think there's a biffy clyro-esque quality to that bit in that he plays fewer notes than it sounds like, and the bass fills in with the root note a lot of the time. also I don't think he plays the same chords in the same order at any point until it gets back to the chorus bit, which is inconvenient :LOL:

Link to comment
Share on other sites

watching that video again I think I could probably give the chords a go tomorrow. I think there's a biffy clyro-esque quality to that bit in that he plays fewer notes than it sounds like, and the bass fills in with the root note a lot of the time. also I don't think he plays the same chords in the same order at any point until it gets back to the chorus bit, which is inconvenient :LOL:

 

That part is mad, he changes those fingers on that fretboard so many times, still watching it and can't get a lot of chords. :eek:

 

No one asks for making the tab 100% correct, making it close will make for me easier to find those sounding right for me for example, because now I am in dead point.

Link to comment
Share on other sites

That part is mad, he changes those fingers on that fretboard so many times, still watching it and can't get a lot of chords. :eek:

 

This. Just about the only thing I can take from the video is that the tuning is actually a half step down, judging by where he plays that first Cm. I just gave up and did the rest by ear using the album version.

 

Eb------------------------------------------------------
Bb-----5---------5------------------------------------
Gb-----6---------6---------9--9--8------------------
Db-----6---------7---------9--9--9------------------
Ab-----x---------0---------7--6--6------------------
C-------------------------------------------------------

Then, the same again, only with:

Eb------------------------------------------------------
Bb-----5---------5------------------------------------
Gb-----6---------6---------[color="Yellow"][b]8[/b][/color] ---[color="Yellow"][b]9[/b][/color]---------9--9--8-
Db-----6---------7---------[color="Yellow"][b]x[/b][/color]----[color="Yellow"][b]x[/b][/color]---------9--9--9-
Ab-----x---------0---------[color="Yellow"][b]9[/b][/color]----[color="Yellow"][b]11[/b][/color]--------7--6--6-
C-------------------------------------------------------

 

Here's me playing it so you can ear the rhythms and changes:

 

[sOUNDCLOUD]

[/sOUNDCLOUD]

 

Far from perfect, but I reckon it sounds pretty close. Someone with more talent/patience to analyze the video will no doubt come up with something better :LOL:

Link to comment
Share on other sites

This. Just about the only thing I can take from the video is that the tuning is actually a half step down, judging by where he plays that first Cm. I just gave up and did the rest by ear using the album version.

 

Eb------------------------------------------------------
Bb-----5---------5------------------------------------
Gb-----6---------6---------9--9--8------------------
Db-----6---------7---------9--9--9------------------
Ab-----x---------0---------7--6--6------------------
C-------------------------------------------------------

Then, the same again, only with:

Eb------------------------------------------------------
Bb-----5---------5------------------------------------
Gb-----6---------6---------[color="Yellow"][b]8[/b][/color] ---[color="Yellow"][b]9[/b][/color]---------9--9--8-
Db-----6---------7---------[color="Yellow"][b]x[/b][/color]----[color="Yellow"][b]x[/b][/color]---------9--9--9-
Ab-----x---------0---------[color="Yellow"][b]9[/b][/color]----[color="Yellow"][b]11[/b][/color]--------7--6--6-
C-------------------------------------------------------

 

Here's me playing it so you can ear the rhythms and changes:

 

[sOUNDCLOUD]

[/sOUNDCLOUD]

 

Far from perfect, but I reckon it sounds pretty close. Someone with more talent/patience to analyze the video will no doubt come up with something better :LOL:

 

Taking guitar and trying this out.

Link to comment
Share on other sites

Taking guitar and trying this out.

 

After taking a look at your tab in half tone and playing along side live, this is what I hear and seems pretty correct to what matt is touching.

 

E|-------------------------------------------

B|-------------------------------------------

G|----5-------5------8------7-------------

D|----5-------6------8------8-------------

A|----3-------3------6------5-------------

C|-------------------------------------------

 

then

 

E|-------------------------------------------

B|----4------------------------------------

G|----5-------5------7----8------7---------

D|----5-------6--------------------8------

A|-------------6------8---10-----8-------

C|-------------------------------------------

 

Whole tab repeats only 2 times. On the solo without vocal and for the first verse after solo, the he hits different chords which I am unable to get.

 

Got some feeling that it is indeed in Half Step down according to what I see but i am not sure. this played in standard sounds just fine only the SECOND chord of:

 

E|-------------------------------------------

B|----4------------------------------------

G|----5-------5------7----8------7---------

D|----5-------6--------------------8------

A|-------------6------8---10-----8-------

C|-------------------------------------------

 

It sounds OK but I don't see matt holding this one. Maybe it's played double the First Chord or double the Second Chord.

 

"Don't leave...."

 

E|----------------------------------------------

B|----8-------8------9-------6---------------

G|-----------------------------8----- 8-----7--

D|----5---------------6------8------8------8-

A|-------------6----------------------8----- 8-

C|----------------------------------------------

 

Those are kinda experimental... Seems ok but not sure if it's correct I try to tab what I hear ok and seems what Matt plays at the same time but I am 90% sure that he does standard tuning.

 

This is what I could get from today, I'm going to sit with that tab for a while and find mistakes, let's see if you guys will find anything interesting :)

Edited by HairyMuser
Link to comment
Share on other sites

ok here's my read of the tab from the bridge up to the final chorus

 

E|-------------------------------
B|-------------------------------
G|---(5)-----(5)----(8)----(7)---
D|----5-------6------8------8----
A|----3-------3------6------5----
C|-------------------------------

E|-------------------------------
B|-------------------------------
G|----5-------5--/7--8----8--7---
D|----5-------6--/8--8----8--8---
A|----6-------6--/8--10---8--8---
C|-------------------------------

(play the above twice)

E|--------------------------------
B|--------------------8-----------
G|----8-------8---10-(8)---8--7---
D|----5-------6---6---8----8--8---
A|-------------------------8--8---
C|--------------------------------

E|-------------------------10-----
B|----8-------9---9---11---11-----
G|----8-------8---8---8----10-----
D|----8-------8---6---8-----------
A|--------------------------------
C|--------------------------------


then back to

E|11-10-11-10
B|13-12-13-13
G|13-12-12-12
D|-----------
A|-----------
C|-----------

 

edit: actually, slight modification to the final chorus. note that he sings the words in a different order in the video posted above to the studio version, so I'll refer to the words as he sings them on the video for purposes of clarity

 

for the first half (from "my skin is warm to caress") he appears only to alternate between x-x-x-12-13-11 and x-x-x-12-13-10, then plays the above four chords for the second half (from "you taught me to lie without a trace" onwards)

Edited by Doog
Link to comment
Share on other sites

ok here's my read of the tab from the bridge up to the final chorus

 

E|-------------------------------
B|-------------------------------
G|---(5)-----(5)----(8)----(7)---
D|----5-------6------8------8----
A|----3-------3------6------5----
C|-------------------------------

E|-------------------------------
B|-------------------------------
G|----5-------5--/7--8----8--7---
D|----5-------6--/8--8----8--8---
A|----6-------6--/8--10---8--8---
C|-------------------------------

(play the above twice)

E|--------------------------------
B|--------------------8-----------
G|----8-------8---10-(8)---8--7---
D|----5-------6---6---8----8--8---
A|-------------------------8--8---
C|--------------------------------

E|-------------------------10-----
B|----8-------9---9---11---11-----
G|----8-------8---8---8----10-----
D|----8-------8---6---8-----------
A|--------------------------------
C|--------------------------------


then back to

E|11-10-11-10
B|13-12-13-13
G|13-12-12-12
D|-----------
A|-----------
C|-----------

 

edit: actually, slight modification to the final chorus. note that he sings the words in a different order in the video posted above to the studio version, so I'll refer to the words as he sings them on the video for purposes of clarity

 

for the first half (from "my skin is warm to caress") he appears only to alternate between x-x-x-12-13-11 and x-x-x-12-13-10, then plays the above four chords for the second half (from "you taught me to lie without a trace" onwards)

 

I'll have to edit this in in the morning :) such a bugger to work out the exact things he plays, simple 4 chord bit my arse :LOL:

Link to comment
Share on other sites

ok here's my read of the tab from the bridge up to the final chorus

 

E|-------------------------------
B|-------------------------------
G|---(5)-----(5)----(8)----(7)---
D|----5-------6------8------8----
A|----3-------3------6------5----
C|-------------------------------

E|-------------------------------
B|-------------------------------
G|----5-------5--/7--8----8--7---
D|----5-------6--/8--8----8--8---
A|----6-------6--/8--10---8--8---
C|-------------------------------

(play the above twice)

E|--------------------------------
B|--------------------8-----------
G|----8-------8---10-(8)---8--7---
D|----5-------6---6---8----8--8---
A|-------------------------8--8---
C|--------------------------------

E|-------------------------10-----
B|----8-------9---9---11---11-----
G|----8-------8---8---8----10-----
D|----8-------8---6---8-----------
A|--------------------------------
C|--------------------------------


then back to

E|11-10-11-10
B|13-12-13-13
G|13-12-12-12
D|-----------
A|-----------
C|-----------

 

edit: actually, slight modification to the final chorus. note that he sings the words in a different order in the video posted above to the studio version, so I'll refer to the words as he sings them on the video for purposes of clarity

 

for the first half (from "my skin is warm to caress") he appears only to alternate between x-x-x-12-13-11 and x-x-x-12-13-10, then plays the above four chords for the second half (from "you taught me to lie without a trace" onwards)

 

Yup this seems right ^^

Link to comment
Share on other sites

 

E|---------------------------------------------------------------------------------

B|--8----------------------------------------------6-----6---6---6---6-------------x--x--

G|--10b(12)-------------------------------------7b8--7---5---3---3-3tr5etc--x--x--

D|---------------------------------------7b~-----------------------------------------------

A|-------------------------------6p0--------------------------------------------------------

C|---------------0-0-3p0-7----------------------------------------------------------------

 

E|-----------------------------------------------------------------------------------------------------------

B|--8-----------------------------------------------------------------16------15--------13-------11----

G|--10b(12)-------------------------------------------14b15----19b20--18b19--16b17--14b15-

D|-------------------------------12h13p12----------------------------------------------------------------

A|-----------------------------------------------15p0--------------------------------------------------------

C|-----------------0-0-12p0---------------------------------------------------------------------------------

 

Made some changes

 

Ok, it all lines up in the edit window but not in the actual post

 

ok now it does, was just the code thing

 

EDIT: Actually scrap that those bends are 4th fret not 6th aren't they. Still works I guess

Edited by Dominic.
Link to comment
Share on other sites

Create an account or sign in to comment

You need to be a member in order to leave a comment

Create an account

Sign up for a new account in our community. It's easy!

Register a new account

Sign in

Already have an account? Sign in here.

Sign In Now
 Share

×
×
  • Create New...