Jump to content

Mercy guitar tab


bj.mort
 Share

Recommended Posts

Hi all

 

couldn't find a correct tab anywhere for mercy so i wrote one myself

 

standard tuning

 

Verse (Clean)

PM

|-------------------------------------------------------

|-------------------------------------------------------

|--5---------12--------9---------7------------------------

|--5---------12--------9---------7------------------------- x2

|--3-(x8)---10-(x8)--7-(x8)--5-(x8)---------------------

|-------------------------------------------------------

 

Pre Chorus (Fuzz)

 

|-----------------------------------------------------------------------

|------------------------------------------------------------------------

|--5-------------------9---------7---------5---------12--------------

|--5---------5--------9---------7---------5----------12--------------

|--3-(x8)---5-(x8)--7-(x8)--5---(x8)--3--(x8)--10--(x24)------

|--3---------3--------7--------5-----------3------------------------

 

Chorus (Fuzz)

 

|-----------------------------------------------------------------------

|------------------------------------------------------------------------

|--5-------------------9---------7---------5---------12-----------9---

|--5---------5--------9---------7---------5------------------------

|--3-(x8)---5-(x8)--7-(x8)--5---(x8)--3--(x8)--10--(x16)--7----

|--3---------3--------7--------5-----------3------------------------

 

Verse (Clean)

PM

|-------------------------------------------------------

|-------------------------------------------------------

|--5---------12--------9---------7------------------------

|--5---------12--------9---------7------------------------- x2

|--3-(x8)---10-(x8)--7-(x8)--5-(x8)---------------------

|-------------------------------------------------------

 

Pre Chorus (Fuzz)

 

|-----------------------------------------------------------------------

|------------------------------------------------------------------------

|--5-------------------9---------7---------5---------12--------------

|--5---------5--------9---------7---------5----------12--------------

|--3-(x8)---5-(x8)--7-(x8)--5---(x8)--3--(x8)--10--(x24)------

|--3---------3--------7--------5-----------3------------------------

 

Chorus (Fuzz)

 

|-----------------------------------------------------------------------

|------------------------------------------------------------------------

|--5-------------------9---------7---------5---------12-----------9---

|--5---------5--------9---------7---------5------------------------

|--3-(x8)---5-(x8)--7-(x8)--5---(x8)--3--(x8)--10--(x16)--7----

|--3---------3--------7--------5-----------3------------------------

 

Bridge (Clean Delay)

 

|--14---------15------------------------------------------------15---------------------14-------

|--12---------15---------13----------13---------12----------15---------13---------12-------

|--12---------12---------12----------11---------12----------12---------12---------12--------

|--12--(x8)--12--(x8)--12--(x8)--12--(x8)--12---(x8)--12--(x8)--12--(x8)--12-(x8)--

|------------------------------------------------------------------------------------------------------

|------------------------------------------------------------------------------------------------------

 

Pre Chorus (Fuzz)

 

|--------------------------------------------

|--------------------------------------------

|--5-------------------9---------7---------

|--5---------5--------9---------7--------- x2

|--3-(x8)---5-(x8)--7-(x8)--5---(x8)--

|--3---------3--------7--------5-----------

 

Chorus (Fuzz)

 

|-------------------------------------------------------------------------------------

|-------------------------------------------------------------------------------------

|--5-------------------9---------7---------5---------12-----------9---------------

|--5---------5--------9---------7---------5----------------------------------------

|--3-(x8)---5-(x8)--7-(x8)--5---(x8)--3--(x8)--10--(x16)--7--(x6)-------

|--3---------3--------7--------5-----------3----------------------------------12/0

 

Outro (Fuzz)

 

|--------------------------------------------------------------------------------------

|---------------------------------------------------------------------------------------

|--5---------4---------9---------7-----------12--------11---------5----7---------

|----------------------------------------------------------------------------------2----

|--3--(x3)--2--(x3)--7--(x3)--5--(x3)---10--(x2)--9--(X2)--3----5----2-----

|----------------------------------------------------------------------------------0-----

Link to comment
Share on other sites

  • 3 weeks later...

ddf970ce5e.png

 

Some parts of the tab are wrong. I'm pretty sure this is 99% (well as close as I could) correct given all the live performances I've viewed and referring to the original mp3. I've just listed the chords as I'm sure the rhythm is easily worked out. Oh and I haven't bothered doing anything after the bridge because I'm lazy, but if someone wants it I could.

Edited by neostrifeX
Link to comment
Share on other sites

Create an account or sign in to comment

You need to be a member in order to leave a comment

Create an account

Sign up for a new account in our community. It's easy!

Register a new account

Sign in

Already have an account? Sign in here.

Sign In Now
 Share

×
×
  • Create New...