Jump to content

Recommended Posts

I have a guitar pro file with the music on it, but I'm 100% sure its not official

 

Ha I totally forgot I could have looked up the pro track on ultimateguitar since I have a premium membership there. I looked at it and it's apparently an Am chord with a few variations during the drop. Im assuming the left hand stays the same for the Am while the right hand plays the higher parts of the Am somewhere in the 5th octave for the piano that you can clearly hear in the mix.

Share this post


Link to post
Share on other sites

Can someone tab me the pre-chorus and the chorus of resistance live?

 

There's a bunch of tabs online but nothing seems to work out for me and it really pisses me off :$

Share this post


Link to post
Share on other sites

I don't have my guitar with me at the moment so I can't try and work out the inversions he's using in the chorus but here's what I think the Pre-Chorus is from memory

 

G--10--10--10-10-----10--10-10----10--10--10--10---9---9------|

D--10--10---9--10-----10---9--10----10--10--10--12---9--10-----|

 

G--9---9---9---9-----9----9----9------9----9----9----9----7---7-------|

D--10-10--9--10----10---9---10----10--10--10---12---7---9-------|

 

G--7--7--7--7-----7--7--7-----7--7--7--7--5---5----------|

D--9--9--7--9-----9--7--9-----9--9--9-10--5---7---------|

 

G--5--5--5--5----5--5--5-----5--5--5--5--7--10----------|

D--7--7--5--7----7--5--7-----7--7--5--7--9--10----------|

 

Then just replace that last little bit with

 

G--5--5--5--5----5--5---10-10-10-10-10-10-10-10----

D--7--7--5--7----7--7---10-10-10-10-10-10-10-10----

A----------------------------8---8---8--8---8---8--8---8-----

E-----------------------------------------------------------------

Share this post


Link to post
Share on other sites

Owh okay so it's played only on two strings. That's fine.

 

I don't know about you but i find it pretty tricky...just a pain in the arse for me to play :LOL: because I always hit the b or A string

 

thanks though

Share this post


Link to post
Share on other sites

Hello everyone. so Matt is playing the solo of the handled a bit diffrently on live version. has anyone figured it out? it sounds really cool. thanks

Share this post


Link to post
Share on other sites
Hello everyone. so Matt is playing the solo of the handled a bit diffrently on live version. has anyone figured it out? it sounds really cool. thanks

 

From when I have seen him play it, it seems he just switches it up randomly, nothing specific really. I've mostly just seem him go to lower notes on the D doing the same hammer on pull off technique.

Share this post


Link to post
Share on other sites

D -11-0-12-0-11-0-8-0-11-0-8-0-7-0-8-0-7-0-5-0-7-0-5-0-3-0-5-0-3-0-2-0-3-0-2-0-3-0-5-0-3-0-5-0-7-0-5-0-7-0-8-0-7-0-8-0-11-0-8-0-11-0-12

 

Kind of ! One hand tapping

Share this post


Link to post
Share on other sites

I just noticed TSP at Pinkpop 2004 some weird stuff in the final chorus.Some lower string hitting from what I can tell.Does anyone knows what's he doing there?

Share this post


Link to post
Share on other sites

 

Can you help me finding the tab in verses/clean part with this video? :'( I know there's a lot of tabs of MoTP on UG or Musewiki but again, none of them seems acurate for verses....I mean this song has been released since 10 years lol

 

And looking at Matt's fingers, it even seems that some chords are slightly different between the first part and the second part of verse 1

Share this post


Link to post
Share on other sites

This is what I play for the verses

 

E---

B--4

G--5

D--5

A--3

C---

 

 

E---

B--4

G--3

D--5

A--6

C---

 

E---

B---

G--5

D--6

A--6

C---

 

E---

B--6

G--5

D--3

A---

C---

 

 

He does play some chords higher on the neck towards the end of the song, but not sure which ones.

Share this post


Link to post
Share on other sites

I usually play exactly what you play but what if :

 

E---

B--4

G--5

D--X

A--3

C---

 

 

E---

B--4

G--3

D--5

A--6

C---

 

E--4

B--4

G--5

D--6

A---

C---

 

E---

B--6

G--5

D--3

A--3

C---

 

Well, it's not very different at all but still, what do you think?

Share this post


Link to post
Share on other sites

I had a tab somewhere which I reckon is pretty much spot on to how he played it in 2010. I can search for it after work or maybe james90 can use his magic search skills

Share this post


Link to post
Share on other sites

He plays the same chords, except up the neck.

 

E---8

B--8

G--8

D--10

A--10

C---

 

E---11

B--8

G--8

D--8

A--X

C---

 

E---11

B--9

G--8

D--10

A--X

C---

 

E---8

B--9

G--10

D--10

A--x

C---

Share this post


Link to post
Share on other sites

 

Can you help me finding the tab in verses/clean part with this video? :'( I know there's a lot of tabs of MoTP on UG or Musewiki but again, none of them seems acurate for verses....I mean this song has been released since 10 years lol

 

And looking at Matt's fingers, it even seems that some chords are slightly different between the first part and the second part of verse 1

 

The chords people have listed above have pretty much covered it.

 

Verse: Cm, Eb, Ab, Fm/F5 whatever u wanna call it.

 

e--------------|-------------|--4--------|--------------|

B-4-----------|--4---------|--4--------|---6---------|

G-5-----------|--3---------|--5--------|---5---------|

D-x-----------|--5---------|--6--------|---3---------|

A-3-----------|--6---------|------------|--------------|

C--------------|------------|------------|--------------|

 

In the second half he'll sometimes add notes to the chords but those are the inversions that he bases it around. For example he sometimes plays the chords like this. Same chords just 'built' differently. Also in the bar where he plays the Fm/F5 inversion he adds that F ?sus? chord.

 

e--3-----------|--3----------|-----------|---------------|

B--4-----------|--4---------|--4--------|---6----3-----|

G--5-----------|--3---------|--5--------|---5----5-----|

D--5-----------|--5---------|--6--------|---3----3-----|

A---------------|--6---------|--6--------|---3----3-----|

C---------------|------------|------------|---------------|

 

Clean part.

 

e--8--------|--11---------|--11---------|---8------

B--8--------|--8----------|---9---------|----9-----

G--8--------|--8----------|---8---------|--10-----

D-10-------|--8-----------|--10--------|--10-----

A------------|--------------|-------------|-----------

C------------|--------------|-------------|-----------

Share this post


Link to post
Share on other sites

Woah, no ones posted here in a while. Alright, does anyone have the tabs for Sing for Abso's verse and chorus live? I know a capo is placed on the 2nd fret. The song seems to be played a semitone down so is he playing it a fret lower or is the whammy used to play it down 1 semi. Thanks in advance!

Share this post


Link to post
Share on other sites
Woah, no ones posted here in a while. Alright, does anyone have the tabs for Sing for Abso's verse and chorus live? I know a capo is placed on the 2nd fret. The song seems to be played a semitone down so is he playing it a fret lower or is the whammy used to play it down 1 semi. Thanks in advance!

 

RE: the down-tuning: I just think he has his guitar tuned 1 semi-step down. So:

 

eb

Bb

Gb

Db

Ab

Eb

Share this post


Link to post
Share on other sites

Is there any good tab to Dead Inside? I haven't found one that sounds right, and I've had trouble making it out myself. Mostly from the "Don't leave me out..." onwards.

Share this post


Link to post
Share on other sites
Is there any good tab to Dead Inside? I haven't found one that sounds right, and I've had trouble making it out myself. Mostly from the "Don't leave me out..." onwards.

 

Enit, haven't seen one so far. I haven't actually picked up my guitar in months either so not had the chance to work it out. There must be enough proshots and fan footage of Matt to work it out by now?

Share this post


Link to post
Share on other sites

This is what I've been playing and it sounds pretty good to me. Listen for the timing but as you guys probably know it's pretty straight forward. Only thing I'm not sure about is that when he plays the Ab major in the second bar of the instrumental and "Feel me now" bits it might be Ab/C instead but eh.

 

Instrumental and "Feel me now"

 

G-5-------|-5-------|-8--------|-7-------|-5------|-5--7----|-8-----|-8--7--||

D-5-------|-6-------|-8--------|-8-------|-5------|-6--(8)--|-(8)---|-8--8--||

A-3-------|-6-------|-6--------|-5-------|-6------|-6--8----|-10----|-8--8--||

C---------|----------|-----------|----------|--------|----------|---------|--------|| X2

 

() = optional note if you want to thicken out the chord.

 

"Don't Leaveee me out in the cold"

 

e--------|---------------|-----------|------------|

B-8-----|---------------|-8--------|------------|

G-8-----|--8---10-----|-8--------|---8--7---|

D-5-----|-(6)--(6)-----|-8--------|---8--8---|

A--------|--6----6------|----------|----8--8---|

C--------|---------------|----------|------------|

 

"I gave you everything..."

 

e--------|---------------|-----------|----11--10---|

B-8-----|--8-----9-----|-11-------|---11--11----|

G-8-----|--8-----8-----|-8--------|---10--10---|

D-5-----|--6-----6-----|-8--------|---------------|

 

"My lips feel" - Matt arpeggiates this nowadays like this live (play each for a whole bar i just cba typing out a whole bar of it for each one)

 

e-11---------------|-13----------------|-11---------------|-10---------------||

B----13------13--|-----13------13---|----13-----13---|-----13------13--||

G--------12-------|---------12--------|---------12-------|----------12------||

D-------------------|--------------------|-------------------|--------------------|| x2

 

"You taught me to lie..." - Back to strumming.

 

e--11--------|-10-------|-11------|-10--------|

B--13-------|-12-------|-13------|-13--------|

G--13-------|-12-------|-12------|-12--------|

 

"On the outside..."

 

e--11--------|-10-------|-13------|-11--------|

B--13-------|-12-------|-13------|-13--------|

G--13-------|-12-------|-13------|-13--------|

Share this post


Link to post
Share on other sites

I've been trying to work out this little lick matt does at 6:20 during the psycho riff for ages but cant figure it out. Anyone reckon they could figure it out? :D:D

 

Share this post


Link to post
Share on other sites

I can't be arsed tabbing it out, but if you can play the part at 0:15 SMBH, just shift it down 2 frets and play around there a bit...

Share this post


Link to post
Share on other sites
I've been trying to work out this little lick matt does at 6:20 during the psycho riff for ages but cant figure it out. Anyone reckon they could figure it out? :D:D

 

 

Probably something like this:

 

e-----------------------------------------------------
B-----------------------------------------------------
G--12b14--12b14--12--10--12--10------10---------------
D--------------------------------12-------------------
A-----------------------------------------------------
D-----------------------------------------------------

 

Where the first 12b14 is the bend upwards, and the second 12b14 you bend it back, if that makes sense.

Share this post


Link to post
Share on other sites

Create an account or sign in to comment

You need to be a member in order to leave a comment

Create an account

Sign up for a new account in our community. It's easy!

Register a new account

Sign in

Already have an account? Sign in here.

Sign In Now

×
×
  • Create New...