Jump to content

Recommended Posts

Please can someone decode or do a tutorial for Monty Jam Piano Version ????

My ears are useless and i'm just lazy...

 

Share this post


Link to post
Share on other sites

It's easy. I could write it down but my hands are just lazy ;)

 

Just a hole lot of noodling around Cmin, Bb and F... it sound just a bit like Hyper Chondriac Music if you ask me :LOL:

Share this post


Link to post
Share on other sites

I'm gonna try and post the tab I made for Psycho in a minute...I apologise in advance for the poor layout but just copy and paste it into Word and it should be fine :D

 

Also, I've just included the different sections and not the order they go in! Any corrections just let me know and I'll amend it

 

Intro

 

E] ------------------------------------------

B] ------------------------------------------

G] ------------------------------------------

D] ------------------------------------------ x4

A] ------------------------------------------

D] -0--3-0-5-0-3-0---0-3-0--5b-5b—

 

 

 

E] ------------------------------------------

B] ------------------------------------------

G] ------------------------------------------

D] ------------------------------------------

A] ------------------------------------------

D] -0--3-0-5-0-3-0---0-3-0--5b-5b--

 

 

E] ------------------------------------------

B] ------------------------------------------

G] ------------------------------------------

D] ------------------------------------------ (Not too sure on the harmonics here)

A] ------------------------------------------

D] -0--3-0-5-0-3-0---0-HARMONICS

 

 

E] ------------------------------------------

B] ------------------------------------------

G] ------------------------------------------

D] ------------------------------------------

A] ------------------------------------------

D] -0--3-0-5-0-3-0---0-3-0--5b-5b--

 

 

E] ------------------------------------------

B] ------------------------------------------

G] ------------------------------------------

D] ------------------------------------------

A] ------------------------- 4-5-6/----------

D] -0--3-0-5-0-3-0---0-4-5-6/---------

 

 

E] ------------------------------------------

B] ------------------------------------------

G] ------------------------------------------

D] ------------------------------------------

A] --------------------------------------------

D] -7--8-7-11-7-8-7---7-8-7-11-7-8-7-

 

 

E] ------------------------------------------

B] ------------------------------------------

G] ------------------------------------------

D] ------------------------------------------

A] -------------------------3---------4------

D] -5--7-5-8-5-7-3~-3----2~-2---2----

 

 

E] -----------------------------------------------------------------------------

B] -----------------------------------------------------------------------------

G] -12~~~---12~~~----10h12p10--------------------------------------

D] -----------------------------------------------------------10-10-10-10~-

A] --------------------------------------------10h11h12--------------------

D] ----------------------------------------------------------------------------

 

 

Verse

 

E] --------------------------------------------------------

B] --------------------------------------------------------

G] -------------------------------------------------------

D] -------------------------------------------------------

A] -------------------------------------------------------

D] -0--00-00-0-5h6h7--0--00-00-0-10h11h12

 

 

E] --------------------------------------------------------

B] --------------------------------------------------------

G] -------------------------------------------------------

D] -------------------------------------------------------

A] -------------------------------------------------------

D] -0--00-00-0-5h6p3--0--00-00-0-5h6h7-----

 

 

E] --------------------------------------------------------

B] --------------------------------------------------------

G] -------------------------------------------------------

D] -------------------------------------------------------

A] -------------------------------------------------------

D] -0--00-00-0-7h8h9--0--00-00-0-7h8h9----

 

 

E] --------------------------------------------------------

B] --------------------------------------------------------

G] -------------------------------------------------------

D] -------------------------------------------------------

A] -------------------------------------------------------

D] -0--00-00-0-10h11h12--0--00-00-0-5h6h7-

X2

 

 

E] --------------------------------------------------------

B] --------------------------------------------------------

G] -------------------------------------------------------

D] -------------------------------------------------------

A] -------------------------------------------------------

D] -0--00-00-0-5h6h7--0--00-00-0-10h11h12

 

 

E] --------------------------------------------------------

B] --------------------------------------------------------

G] -------------------------------------------------------

D] -------------------------------------------------------

A] -------------------------------------------------------

D] -0--00-00-0-5h6p3--0—HARMONICS-----

 

 

 

Solo

 

E] ------------------------------------------------------------

B] -------------------------------------------------------------

G] -7------9----10-----12-----14-----15-------18----19-

D] -x------x-----x-------x------x--------x--------x------x--- Play each chord 16 times

A] -5------7-----8-----10-----12------13------16-----17-

D] ------------------------------------------------------------

Edited by MrRaptorTurtle

Share this post


Link to post
Share on other sites
I'm gonna try and post the tab I made for Psycho in a minute...I apologise in advance for the poor layout but just copy and paste it into Word and it should be fine :D

 

Also, I've just included the different sections and not the order they go in! Any corrections just let me know and I'll amend it

 

Nicely done :)

Share this post


Link to post
Share on other sites

 

Intro/Chorus/General riff

 

E] ------------------------------------------

B] ------------------------------------------

G] ------------------------------------------

D] ------------------------------------------

A] ------------------------------------------

D] -0--3-0-5-0-3-0---0-3-0--5b-5b—

 

E] -----------------------------------------------

B] ----------------------------13----13--10---

G] ----------------------------10-x-------10--

D] ---------------------------------------------- (Not too sure on the harmonics here)

A] -----------------------------------------------

D] -0--3-0-5-0-3-0---0----------------------

 

 

E] ------------------------------------------

B] ------------------------------------------

G] ------------------------------------------

D] ------------------------------------------

A] ------------------------------------------

D] -0--3-0-5-0-3-0---0-3-0--5b-5b--

 

 

E] ------------------------------------------

B] ------------------------------------------

G] ------------------------------------------

D] ------------------------------------------

A] ------------------------- 4---5----6/---

D] -0--3-0-5-0-3-0---0-4-0-5-0-6-0--

 

 

E] ------------------------------------------

B] ------------------------------------------

G] ------------------------------------------

D] ------------------------------------------

A] --------------------------------------------

D] -7--8-7-11-7-8-7---7-8-7-11-7-8-7-

 

 

E] ------------------------------------------

B] ------------------------------------------

G] ------------------------------------------

D] ------------------------------------------

A] -------------------------3---------4------

D] -5--7-5-8-7-5-3~-3----2~-2---2----

 

 

E] -----------------------------------------------------------------------------

B] -----------------------------------------------------------------------------

G] -12~~~---12b~~~----10h12p10--------------------------------------

D] -----------------------------------------------------------10-10-10-10~-

A] --------------------------------------------10h11h12--------------------

D] ----------------------------------------------------------------------------

 

 

Verse

 

E] --------------------------------------------------------

B] --------------------------------------------------------

G] -------------------------------------------------------

D] -------------------------------------------------------

A] -------------------------------------------------------

D] -0--00-00-0-5h6h7--0--00-00-0-10h11h12

 

 

E] --------------------------------------------------------

B] --------------------------------------------------------

G] -------------------------------------------------------

D] -------------------------------------------------------

A] -------------------------------------------------------

D] -0--00-00-0-5p0h3--0--00-00-0-5h6h7-----

 

 

E] --------------------------------------------------------------------------------

B] --------------------------------------------------------------------------------

G] -------------------------------------------------------------------------------

D] --------------------------------------------------------------------------------

A] ----------------0h1h2--3--33-33-0-3h4h5--------------------3h4h5--

D] -3--33-33-3-------------------------------------5--55--55--0------------

 

 

E] --------------------------------------------------------

B] --------------------------------------------------------

G] -------------------------------------------------------

D] -------------------------------------------------------

A] -------------------------------------------------------

D] -5--55-55-0-5h6h7--0--00-00-0-5h6h7------

 

Pre-Chorus

 

E] --------------------------------------------------------

B] --------------------------------------------------------

G] -------------------------------------------------------

D] -------------------------------------------------------

A] -------------------------------------------------------

D] -0--00-00-0-5h6h7--0--00-00-0-10h11h12

 

 

E] --------------------------------------------------------

B] ----------------------------------13------13---10---

G] ----------------------------------10-x---10---10---

D] --------------------------------------------------------

A] --------------------------------------------------------

D] -0--00-00-0-5p0h3--0—-------------------------

 

 

 

Solo

 

E] ------------------------------------------------------------

B] -------------------------------------------------------------

G] -7------9----10-----12-----14-----15-------18----19-

D] -x------x-----x-------x------x--------x--------x------x--- Play each chord 16 times

A] -5------7-----8-----10-----12------13------16-----17-

D] ------------------------------------------------------------

fixed a bit

 

 

After the second chorus there's also a bit on the G string where he picks at the 7th fret and lets it ring with the sustainer

Edited by Dominic.

Share this post


Link to post
Share on other sites
fixed a bit

 

 

After the second chorus there's also a bit on the G string where he picks at the 7th fret and lets it ring with the sustainer

 

Nice one for the fixes!

Yeah I couldn't be arsed putting that bit in the tab as it's such a small part:LOL:

Share this post


Link to post
Share on other sites
Nice one for the fixes!

 

Yeah I couldn't be arsed putting that bit in the tab as it's such a small part:LOL:

 

 

Yeeeah. The bits around the 13th fret also vary throughout.

 

Tried twice to upload a cover but sound cloud wasn't having it

 

edit: has KnT gone quiet because it's late or is everyone trying to learn the song?

Edited by Dominic.

Share this post


Link to post
Share on other sites

I haven't tried playing the riff in Psycho yet, but does he actually play:

0305030 030 5^ 5^? Because when I heard it I imagined it being played like 6^ 6^.

^ being a slight bend.

Share this post


Link to post
Share on other sites
I haven't tried playing the riff in Psycho yet, but does he actually play:

0305030 030 5^ 5^? Because when I heard it I imagined it being played like 6^ 6^.

^ being a slight bend.

 

It's definitely bending on the 5. The note is G#

Share this post


Link to post
Share on other sites
I haven't tried playing the riff in Psycho yet, but does he actually play:

0305030 030 5^ 5^? Because when I heard it I imagined it being played like 6^ 6^.

^ being a slight bend.

 

Yup, well when they used it as an outro it ended in 6, in Psycho they just bend the 5 up a semi-tone to reach the same note or thereabouts! :)

Share this post


Link to post
Share on other sites

Can someone help me a bit with the outro to trumpet or tap by biffy? The tuning is C# G# C# F# A# D#. I can't quite tell if he is playing some open chord or if his thumb is playing the 10th fret on the lowest string which would make sense. The melody he's playing underneath sounds something like this A# ---13 --12 -- 10 and then one part is A# --8-12--8-12-- right?

From around 3.00

Share this post


Link to post
Share on other sites
Can someone help me a bit with the outro to trumpet or tap by biffy? The tuning is C# G# C# F# A# D#. I can't quite tell if he is playing some open chord or if his thumb is playing the 10th fret on the lowest string which would make sense. The melody he's playing underneath sounds something like this A# ---13 --12 -- 10 and then one part is A# --8-12--8-12-- right?

From around 3.00

 

http://tabs.ultimate-guitar.com/b/biffy_clyro/trumpet_or_tap_tab_1247028id_15052013date.htm

Share this post


Link to post
Share on other sites

Couldn't help but remember that time someone asked for a KoC tab and tczechan posted a trumpet tab for him to transcribe for guitar

 

also, your access virus is shit.

Share this post


Link to post
Share on other sites
Couldn't help but remember that time someone asked for a KoC tab and tczechan posted a trumpet tab for him to transcribe for guitar

 

also, your access virus is shit.

 

access virus?

Share this post


Link to post
Share on other sites

Oh, it had nothing to do with your post, and chances are only one person on here will know what I'm talking about

Share this post


Link to post
Share on other sites

Thats not correct at all. The chords in the outro are the same but the melody underneath is completely off.

Couldn't help but remember that time someone asked for a KoC tab and tczechan posted a trumpet tab for him to transcribe for guitar

 

also, your access virus is shit.

Access virus as in synth?

Share this post


Link to post
Share on other sites
Oh, it had nothing to do with your post, and chances are only one person on here will know what I'm talking about

 

Me or the_man361 (who hasnt been on here in years)

 

We both had Virus Bs

 

We also both survived the darkest days of KNT

 

 

PS. Team Ossim is reforming

Share this post


Link to post
Share on other sites
Anyone know what chords he plays during the first verse of The Groove live?

 

 

Pretty sure he's just playing

 

e------|-----|------|------|

B-2~-|-2~-|------|-2---|

G-2~-|-2~-|-1~-|-2---|

D------|-----|-----|------|

A------|-----|-----|------|

E------|-----|-----|------|

Share this post


Link to post
Share on other sites

I never actually checked on live footage, but to me it always sounded simply like: F#m, A, E, F#m.

Share this post


Link to post
Share on other sites

Anyone figured out Mercy yet?

 

Seems to mostly just be different power chords variants of C, G, D and E

 

and the outro seems to just be

 

 

G-------------------------9-9-9-7-7-7-/12-12-11-11---------------------|

D-10-10-10--9-9-9----------------------------------------10----9-----2--|

A-10-10-10--9-9-9---7-7-7-5-5-5-/10-10--9---9----10----9-----2--|

D-10-10-10--9-9-9----------------------------------------10----9-----2--|

Share this post


Link to post
Share on other sites
Anyone figured out Mercy yet?

 

Seems to mostly just be different power chords variants of C, G, D and E

 

I'm partway through the bass tab. Waiting to check it with the proper release of the song before I put it up. Might help a bit with guitar stuff

Share this post


Link to post
Share on other sites

Create an account or sign in to comment

You need to be a member in order to leave a comment

Create an account

Sign up for a new account in our community. It's easy!

Register a new account

Sign in

Already have an account? Sign in here.

Sign In Now

×
×
  • Create New...