Jump to content

Recommended Posts

Intro:

D--13--14--14----13--14--14-----------------------13--14--14----13--14--14---------------------

G---0--12---12----0----12--12-----------------------0--12---12----0----12--12--------------------

A---------------------------------------5*-5*-5*-5*-----------------------------------------------------------

D-----------------------------------------------------------------------------------------------5*-5*-5*-5*---

 

Not sure if those harmonics are the right ones but they're close enough...

 

Riff:

A--5---------5--------5----------------3-4-5--

D-----0-0------0-0------0-5-6-7-0-----------

Share this post


Link to post
Share on other sites

The harmonics are definitely 2.5 on the two D strings. I spent ages figuring them out when I was first learning it. :LOL:

Share this post


Link to post
Share on other sites
The harmonics are definitely 2.5 on the two D strings. I spent ages figuring them out when I was first learning it. :LOL:

 

Oh yeah sorry, all the harmonics are on the D string. 2.5 then 5

Share this post


Link to post
Share on other sites

Nope! 2.5 on the higher D string, then 2.5 on the lower D string. Trust me, I spent ages figuring out the lower one! :LOL:

Share this post


Link to post
Share on other sites

Live, maybe, but not on the recorded version. It's the same harmonic as Stockholm Syndrome.

Share this post


Link to post
Share on other sites

Hey,

 

Does anyone know what Bellamy plays during the outro riff in haarp. That little thing around 3:29

 

I understand its a pretty small thing, but i'm kinda bored and would really like to know. If anyone knows thank you very much

Share this post


Link to post
Share on other sites

It's something like

 

e-----------------------------

B------10--------------------

G-----12b-12--10----10--

D-------------------- 12-----

A------------------------------

D-----------------------------

 

I always play something like that, doesn't really need to be that precise.

Share this post


Link to post
Share on other sites

Right Lazza you reading?

 

This bit in B&H...

 

e--1---1---1---1---1---1----------------

B--3---2---1---0---3---3---6------5---

G--2---2---2---2---3---2---4------6---

D--0---0----0--0---0---0---6------7---

A--------------------------------------------

D--------------------------------------------

 

The 6-4-6 chord, although it starts off right soon changes and I'm not quite sure how to play it. I've got an idea but wanna see how other people play it

Share this post


Link to post
Share on other sites
Right Lazza you reading?

 

This bit in B&H...

 

e--1---1---1---1---1---1----------------

B--3---2---1---0---3---3---6------5---

G--2---2---2---2---3---2---4------6---

D--0---0----0--0---0---0---6------7---

A--------------------------------------------

D--------------------------------------------

 

The 6-4-6 chord, although it starts off right soon changes and I'm not quite sure how to play it. I've got an idea but wanna see how other people play it

 

I've always played

 

e:---1---1---1---1---1---1---0---0---0-4-0---:

B:---3---2---1---0---3---3---0---2---2-2-2---:

G:---2---2---2---2---3---2---1---1---0-4-2---:

D:---0---0---0---0---0---0---0---0---2-2-2---:

A:-------------------------------------------:

D:-------------------------------------------:

Share this post


Link to post
Share on other sites
-------------
-6--5--5--5--
-4--4--x--6--
-6--6--7--7--
-------------
-------------

Share this post


Link to post
Share on other sites

Dbm

---4---
---5---
---6---
---6---
---4---
---x---

Ab (or G#)

---4---
---4---
---5---
---6---
---6---
---4---

Gbm

---2---
---2---
---2---
---4---
---4---
---2---

A

---5---
---5---
---6---
---7---
---7---
---5---

Then back to the Ab (or G#)

 

Hope that helps. Bear in mind in those performances it's played a half step down, so just slip it up a fret if playing to the album version/earlier live performances.

Share this post


Link to post
Share on other sites
Is the resistance tab on musewiki correct? Some chords seem like quite the stretch.

 

If you mean the pre-chorus, just don't play the A string. It's almost impossible otherwise :LOL:

Share this post


Link to post
Share on other sites
If you mean the pre-chorus, just don't play the A string. It's almost impossible otherwise :LOL:

 

Right, thought so.

 

I had no idea how to pull that off. :LOL:

Share this post


Link to post
Share on other sites

Does anyone have a tab of the heavier part of Hoodoo handy? Musewiki and almost all the tabs on ultimate guitar seem to think that there's only an intro and an outro for guitar. If no one has it already figured out I'll just listen to it a few times and watch what Chris does on H.A.A.R.P. Just wanted to check before working it out :)

Share this post


Link to post
Share on other sites

This has been annoying me for quite a while now, or am I hearing things.

In the last chorus of exo politics(3:25) as soon as that kicks in I hear a 2nd guitar, I can not find tabs for it, because I dont think everyone can hear it. Use headphones see if you can hear it. Anyone?

Share this post


Link to post
Share on other sites
This has been annoying me for quite a while now, or am I hearing things.

In the last chorus of exo politics(3:25) as soon as that kicks in I hear a 2nd guitar, I can not find tabs for it, because I dont think everyone can hear it. Use headphones see if you can hear it. Anyone?

 

e:--------------------------------------------------------------------------:

B:--------------------------1-----------------------------------------------:

G:---------5------------2-----2----2----------6--------------------10-9-7-9-:

D:-----8-----8---8------------------------7-----7---7--------12-------------:

A:--------------------------------------------------------------------------:

E:-6-6---6-----6----1-1---1-----1-----5-5---5-----5----10-10----10----------:

 

e:--------------------------------------------------------------------------:

B:--------------------------1--------------------------------------------6~-:

G:---------5------------2-----2----2----------6---9-6----------6---9-6---7~-:

D:-----8-----8---8------------------------7----------------7-------------7~-:

A:-----------------------------------------------------------------------5~-:

E:-6-6---6-----6----1-1---1-----1-----5-5---5---5------5-5---5---5----------:

 

This?

Edited by Larry.

Share this post


Link to post
Share on other sites

e:--------------------------------------------------------------------------:

B:--------------------------1-----------------------------------------------:

G:---------5------------2-----2----2----------4--------------------10-9-7-9-:

D:-----8-----8---8------------------------7-----7---7--------12-------------:

A:--------------------------------------------------------------------------:

E:-6-6---6-----6----1-1---1-----1-----5-5---5-----5----10-10----10----------:

 

e:--------------------------------------------------------------------------:

B:--------------------------1--------------------------------------------6~-:

G:---------5------------2-----2----2----------6---9-6----------6---9-6---7~-:

D:-----8-----8---8------------------------7----------------7-------------7~-:

A:-----------------------------------------------------------------------5~-:

E:-6-6---6-----6----1-1---1-----1-----5-5---5---5------5-5---5---5----------:

 

This?

 

ehh doesnt sound like it, what Im talking about sounds like going up and down a chord

Share this post


Link to post
Share on other sites
I think this is it... if hte photo isnt good enough ill write it out.

 

That sounds close, im not sure though, maybe if someone could record it and youtube or soundcloud it? im playing it and it sounds close.

Share this post


Link to post
Share on other sites

Create an account or sign in to comment

You need to be a member in order to leave a comment

Create an account

Sign up for a new account in our community. It's easy!

Register a new account

Sign in

Already have an account? Sign in here.

Sign In Now

×
×
  • Create New...