Jump to content
Priad-Luabe

The Handler Tab

Recommended Posts

ok it's taken a while for me to find any good quality videos of this song where you can get some idea of what matt plays live in the bridge (ie "I won't let you control my feelings any more" onwards) but I think I've got enough now to have a stab at it. obviously the album version is just two different guitar parts playing octaves so I haven't bothered tabbing that out :LOL: so here's what I've got for the live version

 

    I won't let you control     my feelings any more
e|---------------------------------------------------------
B|------------------------------------------5--------------
G|-7-------------------9-----------10----------------------
D|---------------------------------------------------------
A|-5-------------------7-----------8--------4--------------
D|---------------------------------------------------------


 and I will no longer do       as I         am told
e|---------------------------------------------------------
B|----------------6---------8---------8-------------10-----
G|---------------------------------------------------------
D|------------------------------------5-------------7------
A|----------------5---------5------------------------------
D|---------------------------------------------------------


 and I am no longer afraid     to walk alone
e|---------------------------------------------------------
B|----------10-------------------------10------------------
G|----------9--------------------------10------------------
D|----------7--------------------------7-------------------
A|---------------------------------------------------------
D|---------------------------------------------------------


 let me go                     let me be
e|---------------------------------------------------------
B|---11----------------------------------------------------
G|---10---------------12--------------14-------------------
D|---8----------------8---------------10-------------------
A|---------------------------------------------------------
D|---------------------------------------------------------


 I'm escaping                  from your grip
e|---------------------------------------------------------
B|---------------------------------------15----------------
G|-----14--------------------------------14----------------
D|-----11--------------------------------12----------------
A|---------------------------------------------------------
D|---------------------------------------------------------


 you will never                own me again
e|---------------------------------------------------------
B|---------15-------------------14-------------------------
G|---------14-------------------14-------------------------
D|---------14-------------------14-------------------------
A|---------------------------------------------------------
D|---------------------------------------------------------

Share this post


Link to post
Share on other sites

Yeah I pretty much got what Doog did from the live performances I've seen. However, at the "let me go" chord, there's no 11 (which is apparent in some fancams and the Roskilde Festival performance). Other then that it's perfect.

 

Also to note, the chorus or what not should be:

3c80f41221.png

Edited by neostrifeX

Share this post


Link to post
Share on other sites

Create an account or sign in to comment

You need to be a member in order to leave a comment

Create an account

Sign up for a new account in our community. It's easy!

Register a new account

Sign in

Already have an account? Sign in here.

Sign In Now

×
×
  • Create New...