Jump to content

Plug in Baby chorus chords


SwiftSampson
 Share

Recommended Posts

Hey all, I did a search and I couldn't find anything related to exactly what I'm looking for.

 

In all the tabs the Plug in Baby chorus goes like this:

 

 

G Bm

e|--3--3--3--3--3--3--3--3--|--3--3--3--3--3--3--3--3--|--2--2--2--2--2--2--2--2--|

B|--3--3--3--3--3--3--3--3--|--3--3--3--3--3--3--3--3--|--3--3--3--3--3--3--3--3--|

G|--4--4--4--4--4--4--4--4--|--4--4--4--4--4--4--4--4--|--4--4--4--4--4--4--4--4--|

D|--5--5--5--5--5--5--5--5--|--5--5--5--5--5--5--5--5--|--4--4--4--4--4--4--4--4--|

A|--5--5--5--5--5--5--5--5--|--5--5--5--5--5--5--5--5--|--2--2--2--2--2--2--2--2--|

E|--3--3--3--3--3--3--3--3--|--3--3--3--3--3--3--3--3--|--------------------------|

And my plug-in ba - by____________

 

Bm/F# G

e|--2--2--2--2--2--2--2--2--|--3--3--3--3--3--3--3--3--|--3--3--3--3--3--3--3--3--|

B|--3--3--3--3--3--3--3--3--|--3--3--3--3--3--3--3--3--|--3--3--3--3--3--3--3--3--|

G|--4--4--4--4--4--4--4--4--|--4--4--4--4--4--4--4--4--|--4--4--4--4--4--4--4--4--|

D|--4--4--4--4--4--4--4--4--|--5--5--5--5--5--5--5--5--|--5--5--5--5--5--5--5--5--|

A|--2--2--2--2--2--2--2--2--|--5--5--5--5--5--5--5--5--|--5--5--5--5--5--5--5--5--|

E|--2--2--2--2--2--2--2--2--|--3--3--3--3--3--3--3--3--|--3--3--3--3--3--3--3--3--|

cru-ci - fies__ my en - em-ies. When I'm tired of giv - ing.____

 

Etc. etc.

 

And that indeed seems to be what matt is playing when they do the song live. But it sounds different to the studio version. I just watched this cover video:

and this guy seems to be playing the chords that I hear in the album version. I was wondering if anyone would be so kind as to tab out what he's playing? I tried and failed!

 

Thanks!

Link to comment
Share on other sites

  • 1 month later...
My bad he's just playing octaves in that cover lol. The way he shapes his hand I thought he was playing something else!

 

That's a great cover version, BTW. Thanks for posting the link.

 

To my ears, the studio version is predominantly the B-octave part over the G/Bm chorus section. Listening to stems I found via google, there appears to be two parts - the octave part that can be clearly heard, and the "live" part of G to Bm power chords, though the latter is mixed very low in the studio version.

 

My preference is to play this, which is a hybrid of the two parts:

 

During the 2 bars of G:

|--x----

|--0----

|--4----

|--x----

|--2----

|--3----

 

During the Bm and F# bars:

|--x-------------------------

|--0--------------x--x--x--

|--4--------------5--6--5--

|--4--------------x--x--x--

|--2--------------3--4--3--

|-----------------------------

 

Although not strictly speaking "correct", IMO it sounds faithful to the studio version but retains the heaviness of the live version. YMMV, etc. :)

Edited by adephazy
Corrected error in my tab.
Link to comment
Share on other sites

Create an account or sign in to comment

You need to be a member in order to leave a comment

Create an account

Sign up for a new account in our community. It's easy!

Register a new account

Sign in

Already have an account? Sign in here.

Sign In Now
 Share

×
×
  • Create New...