Jump to content

Recommended Posts

Hi guys !

 

Actually, you can do the " dubstep " part without any special effect. I play it like this (sorry, it's just a fast tab, I'm currently at work) :

 

UNSUSTAINABLE TAB by Coul33t

 

/!\ : There may are some errors, due to the fact I'm at work and that my english isn't perfect :)

 

I didn't put the first part, because you can find accurate tabs very easily on internet for it, but I didn't find anything that pleased me (read : I didn't find the way I play it :D ) for the " dubstep " part, so here's my tab (starting just after the " UN-SUS-TAI-NA-BLE).

 

Just a few notes :

- I let you figure out the tempo, didn't have time to make a good tab :p

- The slide from 0 to 17 may go a bit less far, just try and figure out what you appreciate the most !

- 3* and 2* are harmonics, and the two of them are near the fret between 2nd and 3rd case.

- Play with high distorsion, so the harmonics and the random scratching will sound good.

 

 

E|----------------------------------------------------------

B|----------------------------------------------------------

G|-------------------------------------|PM________________|-

D|--------------------------------------8-8-8---8-8-8--8-8--

A|-0/17\0--0----3*--3*-3*-3*---0/17\0---8-8-8---8-8-8--8-8--

D|--------------------------------------8-8-8---8-8-8--8-8--

 

(some random scratching with your mediator (above the pickups) to make the very high pitched sound)

 

E|-------------------------------------------------------------------

B|-------------------------------------------------------------------

G|-------------------------------------------------|PM_____________|-

D|--------------------------------------------------7-7-8-7-7-7-8-7--

A|-17\0-----2*-2*-2*-2*----2*-2*-2*-2*----0/17\0----7-7-8-7-7-7-8-7--

D|--------------------------------------------------7-7-8-7-7-7-8-7--

 

Here we go again

 

E|----------------------------------------------------------

B|----------------------------------------------------------

G|-------------------------------------|PM________________|-

D|--------------------------------------8-8-8---8-8-8--8-8--

A|-0/17\0--0----3*--3*-3*-3*---0/17\0---8-8-8---8-8-8--8-8--

D|--------------------------------------8-8-8---8-8-8--8-8--

 

(some random scratching with your mediator (above the pickups) to make the very high pitched sound)

 

E|-----------------------------------------------------------------

B|-----------------------------------------------------------------

G|-------------------------------------------------|PM_______|-----

D|--------------------------------------------------7-7-7-7-7------

A|-17\0-----2*-2*-2*-2*----2*-2*-2*-2*----0/17\0----7-7-7-7-7-12\8-

D|--------------------------------------------------7-7-7-7-7------

 

 

If you have any suggestion or comments, I'll be more than happy to read them !

Edited by Coulis
Link to comment
Share on other sites

Nah, I recon it's Fuzz Factory, Whammy, Drop A madness, and some pick scrapes and slides.

 

 

It is most definitely not the Kitara. It sounds just like a real guitar, and the kitara sounds really synthy and kinda tinny imo. It might be in the background but what we can hear is a load of big muffs + bass, ff whammy + guitar, and a drum kit. It's simpler than you think, imo.

 

Yeah and you'd "most definitely" know for certain :LOL: Could be though!

 

But how is a load of big muffs + ff + whammy and then guitar simpler than just using the Kitara?

 

I've made a cover of the dubstep part Unsustainable. No kitara, no kaoss pad, just guitar! I bet the original song is recorded almost like this. Hope you like it! ;)

 

pDGQhs7Y5tA

 

:LOL: That was madness, would've been cool if you managed to do it all in one take

Link to comment
Share on other sites

  • 2 weeks later...

I've started tabbing the whole of the 2nd Law trailer music

In guitar pro 6, mostly by ear and a picture of some sheet music.

 

So far I have: (on the first half)

most of the strings, not so much the swaying melody

epic drum impact and some of the choir and brass.

 

Added the sheets I copied from an official image I found

Violin 1, Viola and Cello

I haven't finished it yet though and it's probably not all accurate.

 

(I'm new here by the way...)

2ndLawTrailer_Voilin1.thumb.png.28f7a45c7cc6e2f35eadf0f7e533d75e.png

2ndLawTrailer_Voila.thumb.png.d20dd0d5202f04a99a6aad9107c5f973.png

2ndLawTrailer_Cello.thumb.png.877a0c0bab852c9df962a1a3dd339f4b.png

Link to comment
Share on other sites

  • 3 months later...

Create an account or sign in to comment

You need to be a member in order to leave a comment

Create an account

Sign up for a new account in our community. It's easy!

Register a new account

Sign in

Already have an account? Sign in here.

Sign In Now
 Share

×
×
  • Create New...